ISO-10303-21;
HEADER;
FILE_DESCRIPTION(('Creo Elements/Direct Modeling STEP Export'),'2;1');
FILE_NAME('C:/temp/0lndrr04ol4nf212948/0lndrr04ol4nf222948',
'2019-01-10T 9:29:57',(''),(''),
'PTC Creo Elements/Direct Modeling STEP processor for AP214 (Solid Model
)',
'PTC Creo Elements/Direct Modeling 19.0B  21-Mar-2015 (C) Parametric Tec
hnology GmbH','');
FILE_SCHEMA(('AUTOMOTIVE_DESIGN { 1 0 10303 214 1 1 1 1 }'));
ENDSEC;
DATA;
#10=CARTESIAN_POINT('',(0.,0.,0.));
#20=DIRECTION('',(0.,0.,1.));
#30=DIRECTION('',(1.,0.,0.));
#40=AXIS2_PLACEMENT_3D('',#10,#20,#30);
#50=PLANE('',#40);
#60=CARTESIAN_POINT('',(39.,54.,0.));
#70=DIRECTION('',(0.,0.,-1.));
#80=DIRECTION('',(-1.,0.,0.));
#90=AXIS2_PLACEMENT_3D('',#60,#70,#80);
#100=CIRCLE('',#90,3.03867513459481);
#110=CARTESIAN_POINT('',(42.0386751345948,54.,0.));
#120=VERTEX_POINT('',#110);
#130=CARTESIAN_POINT('',(35.9613248654052,54.,0.));
#140=VERTEX_POINT('',#130);
#150=EDGE_CURVE('',#120,#140,#100,.T.);
#160=ORIENTED_EDGE('',*,*,#150,.F.);
#170=EDGE_CURVE('',#140,#120,#100,.T.);
#180=ORIENTED_EDGE('',*,*,#170,.F.);
#190=EDGE_LOOP('',(#180,#160));
#200=FACE_BOUND('',#190,.T.);
#210=CARTESIAN_POINT('',(39.,54.,0.));
#220=DIRECTION('',(0.,0.,1.));
#230=DIRECTION('',(1.,0.,0.));
#240=AXIS2_PLACEMENT_3D('',#210,#220,#230);
#250=CIRCLE('',#240,3.75);
#260=CARTESIAN_POINT('',(42.75,54.,0.));
#270=VERTEX_POINT('',#260);
#280=CARTESIAN_POINT('',(35.25,54.,0.));
#290=VERTEX_POINT('',#280);
#300=EDGE_CURVE('',#270,#290,#250,.T.);
#310=ORIENTED_EDGE('',*,*,#300,.F.);
#320=EDGE_CURVE('',#290,#270,#250,.T.);
#330=ORIENTED_EDGE('',*,*,#320,.F.);
#340=EDGE_LOOP('',(#330,#310));
#350=FACE_OUTER_BOUND('',#340,.T.);
#360=ADVANCED_FACE('',(#200,#350),#50,.F.);
#370=CARTESIAN_POINT('',(39.,54.,0.));
#380=DIRECTION('',(0.,0.,-1.));
#390=DIRECTION('',(-1.,0.,0.));
#400=AXIS2_PLACEMENT_3D('',#370,#380,#390);
#410=CONICAL_SURFACE('',#400,3.03867513459481,0.523598775598296);
#420=CARTESIAN_POINT('',(35.9613248654052,54.,0.));
#430=DIRECTION('',(-0.499999999999998,0.,-0.86602540378444));
#440=VECTOR('',#430,6.07735026918965);
#450=LINE('',#420,#440);
#460=CARTESIAN_POINT('',(36.25,54.,0.5));
#470=VERTEX_POINT('',#460);
#480=EDGE_CURVE('',#470,#140,#450,.T.);
#490=ORIENTED_EDGE('',*,*,#480,.T.);
#500=CARTESIAN_POINT('',(39.,54.,0.5));
#510=DIRECTION('',(0.,0.,-1.));
#520=DIRECTION('',(-1.,0.,0.));
#530=AXIS2_PLACEMENT_3D('',#500,#510,#520);
#540=CIRCLE('',#530,2.75);
#550=CARTESIAN_POINT('',(41.75,54.,0.5));
#560=VERTEX_POINT('',#550);
#570=EDGE_CURVE('',#470,#560,#540,.T.);
#580=ORIENTED_EDGE('',*,*,#570,.F.);
#590=CARTESIAN_POINT('',(42.0386751345948,54.,0.));
#600=DIRECTION('',(0.499999999999998,0.,-0.86602540378444));
#610=VECTOR('',#600,6.07735026918965);
#620=LINE('',#590,#610);
#630=EDGE_CURVE('',#560,#120,#620,.T.);
#640=ORIENTED_EDGE('',*,*,#630,.F.);
#650=ORIENTED_EDGE('',*,*,#170,.T.);
#660=EDGE_LOOP('',(#650,#640,#580,#490));
#670=FACE_OUTER_BOUND('',#660,.T.);
#680=ADVANCED_FACE('',(#670),#410,.F.);
#690=CARTESIAN_POINT('',(39.,54.,0.));
#700=DIRECTION('',(0.,0.,-1.));
#710=DIRECTION('',(-1.,0.,0.));
#720=AXIS2_PLACEMENT_3D('',#690,#700,#710);
#730=CONICAL_SURFACE('',#720,3.03867513459481,0.523598775598296);
#740=ORIENTED_EDGE('',*,*,#150,.T.);
#750=ORIENTED_EDGE('',*,*,#630,.T.);
#760=EDGE_CURVE('',#560,#470,#540,.T.);
#770=ORIENTED_EDGE('',*,*,#760,.F.);
#780=ORIENTED_EDGE('',*,*,#480,.F.);
#790=EDGE_LOOP('',(#780,#770,#750,#740));
#800=FACE_OUTER_BOUND('',#790,.T.);
#810=ADVANCED_FACE('',(#800),#730,.F.);
#820=CARTESIAN_POINT('',(0.,0.,18.));
#830=DIRECTION('',(0.,0.,1.));
#840=DIRECTION('',(1.,0.,0.));
#850=AXIS2_PLACEMENT_3D('',#820,#830,#840);
#860=PLANE('',#850);
#870=CARTESIAN_POINT('',(40.4,54.,18.));
#880=DIRECTION('',(0.,0.,1.));
#890=DIRECTION('',(1.,0.,0.));
#900=AXIS2_PLACEMENT_3D('',#870,#880,#890);
#910=CIRCLE('',#900,2.3);
#920=CARTESIAN_POINT('',(38.1,54.,18.));
#930=VERTEX_POINT('',#920);
#940=CARTESIAN_POINT('',(42.7,54.,18.));
#950=VERTEX_POINT('',#940);
#960=EDGE_CURVE('',#930,#950,#910,.T.);
#970=ORIENTED_EDGE('',*,*,#960,.F.);
#980=EDGE_CURVE('',#950,#930,#910,.T.);
#990=ORIENTED_EDGE('',*,*,#980,.F.);
#1000=EDGE_LOOP('',(#990,#970));
#1010=FACE_BOUND('',#1000,.T.);
#1020=CARTESIAN_POINT('',(39.,54.,18.));
#1030=DIRECTION('',(0.,0.,1.));
#1040=DIRECTION('',(1.,0.,0.));
#1050=AXIS2_PLACEMENT_3D('',#1020,#1030,#1040);
#1060=CIRCLE('',#1050,3.75);
#1070=CARTESIAN_POINT('',(42.75,54.,18.));
#1080=VERTEX_POINT('',#1070);
#1090=CARTESIAN_POINT('',(35.25,54.,18.));
#1100=VERTEX_POINT('',#1090);
#1110=EDGE_CURVE('',#1080,#1100,#1060,.T.);
#1120=ORIENTED_EDGE('',*,*,#1110,.T.);
#1130=EDGE_CURVE('',#1100,#1080,#1060,.T.);
#1140=ORIENTED_EDGE('',*,*,#1130,.T.);
#1150=EDGE_LOOP('',(#1140,#1120));
#1160=FACE_OUTER_BOUND('',#1150,.T.);
#1170=ADVANCED_FACE('',(#1010,#1160),#860,.T.);
#1180=CARTESIAN_POINT('',(39.,54.,14.624722));
#1190=DIRECTION('',(0.,0.,-1.));
#1200=DIRECTION('',(0.,-1.,0.));
#1210=AXIS2_PLACEMENT_3D('',#1180,#1190,#1200);
#1220=CONICAL_SURFACE('',#1210,3.4,1.0471975511966);
#1230=CARTESIAN_POINT('',(39.,54.,14.9999996749733));
#1240=DIRECTION('',(0.,0.,-1.));
#1250=DIRECTION('',(0.,-1.,0.));
#1260=AXIS2_PLACEMENT_3D('',#1230,#1240,#1250);
#1270=CIRCLE('',#1260,2.75);
#1280=CARTESIAN_POINT('',(39.,56.75,14.9999996749733));
#1290=VERTEX_POINT('',#1280);
#1300=CARTESIAN_POINT('',(41.75,54.,14.9999996749733));
#1310=VERTEX_POINT('',#1300);
#1320=EDGE_CURVE('',#1290,#1310,#1270,.T.);
#1330=ORIENTED_EDGE('',*,*,#1320,.T.);
#1340=CARTESIAN_POINT('',(39.,57.4,14.624722));
#1350=DIRECTION('',(0.,0.866025403784438,-0.500000000000001));
#1360=VECTOR('',#1350,3.92598183048946);
#1370=LINE('',#1340,#1360);
#1380=CARTESIAN_POINT('',(39.,54.,16.5877129152447));
#1390=VERTEX_POINT('',#1380);
#1400=EDGE_CURVE('',#1390,#1290,#1370,.T.);
#1410=ORIENTED_EDGE('',*,*,#1400,.T.);
#1420=CARTESIAN_POINT('',(39.,50.6,14.624722));
#1430=DIRECTION('',(0.,-0.866025403784438,-0.500000000000001));
#1440=VECTOR('',#1430,3.92598183048946);
#1450=LINE('',#1420,#1440);
#1460=CARTESIAN_POINT('',(39.,51.25,14.9999996749733));
#1470=VERTEX_POINT('',#1460);
#1480=EDGE_CURVE('',#1390,#1470,#1450,.T.);
#1490=ORIENTED_EDGE('',*,*,#1480,.F.);
#1500=EDGE_CURVE('',#1310,#1470,#1270,.T.);
#1510=ORIENTED_EDGE('',*,*,#1500,.T.);
#1520=EDGE_LOOP('',(#1510,#1490,#1410,#1330));
#1530=FACE_OUTER_BOUND('',#1520,.T.);
#1540=ADVANCED_FACE('',(#1530),#1220,.F.);
#1550=CARTESIAN_POINT('',(39.,54.,0.));
#1560=DIRECTION('',(0.,0.,-1.));
#1570=DIRECTION('',(1.,0.,0.));
#1580=AXIS2_PLACEMENT_3D('',#1550,#1560,#1570);
#1590=CYLINDRICAL_SURFACE('',#1580,2.75);
#1600=CARTESIAN_POINT('',(36.25,54.,14.9999996749733));
#1610=VERTEX_POINT('',#1600);
#1620=EDGE_CURVE('',#1470,#1610,#1270,.T.);
#1630=ORIENTED_EDGE('',*,*,#1620,.F.);
#1640=CARTESIAN_POINT('',(36.25,54.,0.));
#1650=DIRECTION('',(0.,0.,-1.));
#1660=VECTOR('',#1650,1.);
#1670=LINE('',#1640,#1660);
#1680=EDGE_CURVE('',#1610,#470,#1670,.T.);
#1690=ORIENTED_EDGE('',*,*,#1680,.F.);
#1700=ORIENTED_EDGE('',*,*,#760,.T.);
#1710=CARTESIAN_POINT('',(41.75,54.,0.));
#1720=DIRECTION('',(0.,0.,-1.));
#1730=VECTOR('',#1720,1.);
#1740=LINE('',#1710,#1730);
#1750=EDGE_CURVE('',#1310,#560,#1740,.T.);
#1760=ORIENTED_EDGE('',*,*,#1750,.T.);
#1770=ORIENTED_EDGE('',*,*,#1500,.F.);
#1780=EDGE_LOOP('',(#1770,#1760,#1700,#1690,#1630));
#1790=FACE_OUTER_BOUND('',#1780,.T.);
#1800=ADVANCED_FACE('',(#1790),#1590,.F.);
#1810=CARTESIAN_POINT('',(39.0164805058308,54.,26.));
#1820=DIRECTION('',(0.,0.,1.));
#1830=DIRECTION('',(1.,0.,0.));
#1840=AXIS2_PLACEMENT_3D('',#1810,#1820,#1830);
#1850=PLANE('',#1840);
#1860=CARTESIAN_POINT('',(40.4,54.,26.));
#1870=DIRECTION('',(0.,0.,1.));
#1880=DIRECTION('',(1.,0.,0.));
#1890=AXIS2_PLACEMENT_3D('',#1860,#1870,#1880);
#1900=CIRCLE('',#1890,1.3);
#1910=CARTESIAN_POINT('',(41.7,54.,26.));
#1920=VERTEX_POINT('',#1910);
#1930=CARTESIAN_POINT('',(39.1,54.,26.));
#1940=VERTEX_POINT('',#1930);
#1950=EDGE_CURVE('',#1920,#1940,#1900,.T.);
#1960=ORIENTED_EDGE('',*,*,#1950,.T.);
#1970=EDGE_CURVE('',#1940,#1920,#1900,.T.);
#1980=ORIENTED_EDGE('',*,*,#1970,.T.);
#1990=EDGE_LOOP('',(#1980,#1960));
#2000=FACE_OUTER_BOUND('',#1990,.T.);
#2010=ADVANCED_FACE('',(#2000),#1850,.T.);
#2020=CARTESIAN_POINT('',(40.4,54.,18.));
#2030=DIRECTION('',(0.,0.,1.));
#2040=DIRECTION('',(1.,0.,0.));
#2050=AXIS2_PLACEMENT_3D('',#2020,#2030,#2040);
#2060=CYLINDRICAL_SURFACE('',#2050,2.3);
#2070=CARTESIAN_POINT('',(42.7,54.,18.));
#2080=DIRECTION('',(0.,0.,1.));
#2090=VECTOR('',#2080,1.);
#2100=LINE('',#2070,#2090);
#2110=CARTESIAN_POINT('',(42.7,54.,25.));
#2120=VERTEX_POINT('',#2110);
#2130=EDGE_CURVE('',#950,#2120,#2100,.T.);
#2140=ORIENTED_EDGE('',*,*,#2130,.T.);
#2150=ORIENTED_EDGE('',*,*,#960,.T.);
#2160=CARTESIAN_POINT('',(38.1,54.,18.));
#2170=DIRECTION('',(0.,0.,1.));
#2180=VECTOR('',#2170,1.);
#2190=LINE('',#2160,#2180);
#2200=CARTESIAN_POINT('',(38.1,54.,25.));
#2210=VERTEX_POINT('',#2200);
#2220=EDGE_CURVE('',#930,#2210,#2190,.T.);
#2230=ORIENTED_EDGE('',*,*,#2220,.F.);
#2240=CARTESIAN_POINT('',(40.4,54.,25.));
#2250=DIRECTION('',(0.,0.,1.));
#2260=DIRECTION('',(1.,0.,0.));
#2270=AXIS2_PLACEMENT_3D('',#2240,#2250,#2260);
#2280=CIRCLE('',#2270,2.3);
#2290=EDGE_CURVE('',#2210,#2120,#2280,.T.);
#2300=ORIENTED_EDGE('',*,*,#2290,.F.);
#2310=EDGE_LOOP('',(#2300,#2230,#2150,#2140));
#2320=FACE_OUTER_BOUND('',#2310,.T.);
#2330=ADVANCED_FACE('',(#2320),#2060,.T.);
#2340=CARTESIAN_POINT('',(40.4,54.,25.));
#2350=DIRECTION('',(0.,0.,1.));
#2360=DIRECTION('',(1.,0.,0.));
#2370=AXIS2_PLACEMENT_3D('',#2340,#2350,#2360);
#2380=TOROIDAL_SURFACE('',#2370,1.3,1.);
#2390=CARTESIAN_POINT('',(41.7,54.,25.));
#2400=DIRECTION('',(0.,1.,0.));
#2410=DIRECTION('',(1.,0.,0.));
#2420=AXIS2_PLACEMENT_3D('',#2390,#2400,#2410);
#2430=CIRCLE('',#2420,1.);
#2440=EDGE_CURVE('',#1920,#2120,#2430,.T.);
#2450=ORIENTED_EDGE('',*,*,#2440,.F.);
#2460=ORIENTED_EDGE('',*,*,#2290,.T.);
#2470=CARTESIAN_POINT('',(39.1,54.,25.));
#2480=DIRECTION('',(0.,-1.,0.));
#2490=DIRECTION('',(-1.,0.,0.));
#2500=AXIS2_PLACEMENT_3D('',#2470,#2480,#2490);
#2510=CIRCLE('',#2500,1.);
#2520=EDGE_CURVE('',#1940,#2210,#2510,.T.);
#2530=ORIENTED_EDGE('',*,*,#2520,.T.);
#2540=ORIENTED_EDGE('',*,*,#1970,.F.);
#2550=EDGE_LOOP('',(#2540,#2530,#2460,#2450));
#2560=FACE_OUTER_BOUND('',#2550,.T.);
#2570=ADVANCED_FACE('',(#2560),#2380,.T.);
#2580=CARTESIAN_POINT('',(39.,54.,0.));
#2590=DIRECTION('',(0.,0.,-1.));
#2600=DIRECTION('',(1.,0.,0.));
#2610=AXIS2_PLACEMENT_3D('',#2580,#2590,#2600);
#2620=CYLINDRICAL_SURFACE('',#2610,2.75);
#2630=ORIENTED_EDGE('',*,*,#1680,.T.);
#2640=EDGE_CURVE('',#1610,#1290,#1270,.T.);
#2650=ORIENTED_EDGE('',*,*,#2640,.F.);
#2660=ORIENTED_EDGE('',*,*,#1320,.F.);
#2670=ORIENTED_EDGE('',*,*,#1750,.F.);
#2680=ORIENTED_EDGE('',*,*,#570,.T.);
#2690=EDGE_LOOP('',(#2680,#2670,#2660,#2650,#2630));
#2700=FACE_OUTER_BOUND('',#2690,.T.);
#2710=ADVANCED_FACE('',(#2700),#2620,.F.);
#2720=CARTESIAN_POINT('',(40.4,54.,18.));
#2730=DIRECTION('',(0.,0.,1.));
#2740=DIRECTION('',(1.,0.,0.));
#2750=AXIS2_PLACEMENT_3D('',#2720,#2730,#2740);
#2760=CYLINDRICAL_SURFACE('',#2750,2.3);
#2770=ORIENTED_EDGE('',*,*,#2130,.F.);
#2780=EDGE_CURVE('',#2120,#2210,#2280,.T.);
#2790=ORIENTED_EDGE('',*,*,#2780,.F.);
#2800=ORIENTED_EDGE('',*,*,#2220,.T.);
#2810=ORIENTED_EDGE('',*,*,#980,.T.);
#2820=EDGE_LOOP('',(#2810,#2800,#2790,#2770));
#2830=FACE_OUTER_BOUND('',#2820,.T.);
#2840=ADVANCED_FACE('',(#2830),#2760,.T.);
#2850=CARTESIAN_POINT('',(39.,54.,14.624722));
#2860=DIRECTION('',(0.,0.,-1.));
#2870=DIRECTION('',(0.,-1.,0.));
#2880=AXIS2_PLACEMENT_3D('',#2850,#2860,#2870);
#2890=CONICAL_SURFACE('',#2880,3.4,1.0471975511966);
#2900=ORIENTED_EDGE('',*,*,#2640,.T.);
#2910=ORIENTED_EDGE('',*,*,#1620,.T.);
#2920=ORIENTED_EDGE('',*,*,#1480,.T.);
#2930=ORIENTED_EDGE('',*,*,#1400,.F.);
#2940=EDGE_LOOP('',(#2930,#2920,#2910,#2900));
#2950=FACE_OUTER_BOUND('',#2940,.T.);
#2960=ADVANCED_FACE('',(#2950),#2890,.F.);
#2970=CARTESIAN_POINT('',(40.4,54.,25.));
#2980=DIRECTION('',(0.,0.,1.));
#2990=DIRECTION('',(1.,0.,0.));
#3000=AXIS2_PLACEMENT_3D('',#2970,#2980,#2990);
#3010=TOROIDAL_SURFACE('',#3000,1.3,1.);
#3020=ORIENTED_EDGE('',*,*,#1950,.F.);
#3030=ORIENTED_EDGE('',*,*,#2520,.F.);
#3040=ORIENTED_EDGE('',*,*,#2780,.T.);
#3050=ORIENTED_EDGE('',*,*,#2440,.T.);
#3060=EDGE_LOOP('',(#3050,#3040,#3030,#3020));
#3070=FACE_OUTER_BOUND('',#3060,.T.);
#3080=ADVANCED_FACE('',(#3070),#3010,.T.);
#3090=CARTESIAN_POINT('',(39.,54.,0.));
#3100=DIRECTION('',(0.,0.,1.));
#3110=DIRECTION('',(1.,0.,0.));
#3120=AXIS2_PLACEMENT_3D('',#3090,#3100,#3110);
#3130=CYLINDRICAL_SURFACE('',#3120,3.75);
#3140=CARTESIAN_POINT('',(42.75,54.,0.));
#3150=DIRECTION('',(0.,0.,1.));
#3160=VECTOR('',#3150,1.);
#3170=LINE('',#3140,#3160);
#3180=EDGE_CURVE('',#270,#1080,#3170,.T.);
#3190=ORIENTED_EDGE('',*,*,#3180,.T.);
#3200=ORIENTED_EDGE('',*,*,#320,.T.);
#3210=CARTESIAN_POINT('',(35.25,54.,0.));
#3220=DIRECTION('',(0.,0.,1.));
#3230=VECTOR('',#3220,1.);
#3240=LINE('',#3210,#3230);
#3250=EDGE_CURVE('',#290,#1100,#3240,.T.);
#3260=ORIENTED_EDGE('',*,*,#3250,.F.);
#3270=ORIENTED_EDGE('',*,*,#1130,.F.);
#3280=EDGE_LOOP('',(#3270,#3260,#3200,#3190));
#3290=FACE_OUTER_BOUND('',#3280,.T.);
#3300=ADVANCED_FACE('',(#3290),#3130,.T.);
#3310=CARTESIAN_POINT('',(39.,54.,0.));
#3320=DIRECTION('',(0.,0.,1.));
#3330=DIRECTION('',(1.,0.,0.));
#3340=AXIS2_PLACEMENT_3D('',#3310,#3320,#3330);
#3350=CYLINDRICAL_SURFACE('',#3340,3.75);
#3360=ORIENTED_EDGE('',*,*,#1110,.F.);
#3370=ORIENTED_EDGE('',*,*,#3250,.T.);
#3380=ORIENTED_EDGE('',*,*,#300,.T.);
#3390=ORIENTED_EDGE('',*,*,#3180,.F.);
#3400=EDGE_LOOP('',(#3390,#3380,#3370,#3360));
#3410=FACE_OUTER_BOUND('',#3400,.T.);
#3420=ADVANCED_FACE('',(#3410),#3350,.T.);
#3430=CLOSED_SHELL('',(#3300,#3420,#1170,#1540,#1800,#2010,#2330,#2570,
#2710,#2840,#2960,#3080,#360,#680,#810));
#3440=MANIFOLD_SOLID_BREP('',#3430);
#3450=CARTESIAN_POINT('',(0.,0.,0.));
#3460=DIRECTION('',(0.,0.,1.));
#3470=DIRECTION('',(1.,0.,0.));
#3480=AXIS2_PLACEMENT_3D('',#3450,#3460,#3470);
#3490=APPLICATION_CONTEXT(' ');
#3500=APPLICATION_PROTOCOL_DEFINITION(' ','automotive_design',1998,#3490
);
#3510=PRODUCT_CONTEXT('',#3490,'mechanical');
#3520=PRODUCT_DEFINITION_CONTEXT('part definition',#3490,'design');
#3530=PRODUCT('CGT_16','CGT_16','',(#3510));
#3540=PRODUCT_RELATED_PRODUCT_CATEGORY('part',' ',(#3530));
#3550=PRODUCT_DEFINITION_FORMATION_WITH_SPECIFIED_SOURCE('','',#3530,
.BOUGHT.);
#3560=PRODUCT_DEFINITION('',' ',#3550,#3520);
#3570=PRODUCT_DEFINITION_SHAPE('','',#3560);
#3580=DIMENSIONAL_EXPONENTS(1.,0.,0.,0.,0.,0.,0.);
#3590=DIMENSIONAL_EXPONENTS(0.,0.,0.,0.,0.,0.,0.);
#3600=DIMENSIONAL_EXPONENTS(0.,0.,0.,0.,0.,0.,0.);
#3610=(LENGTH_UNIT() NAMED_UNIT(*) SI_UNIT(.MILLI.,.METRE.));
#3620=(NAMED_UNIT(*) PLANE_ANGLE_UNIT() SI_UNIT($,.RADIAN.));
#3630=(NAMED_UNIT(*) SI_UNIT($,.STERADIAN.) SOLID_ANGLE_UNIT());
#3640=(GEOMETRIC_REPRESENTATION_CONTEXT(3) 
GLOBAL_UNCERTAINTY_ASSIGNED_CONTEXT((#3650)) 
GLOBAL_UNIT_ASSIGNED_CONTEXT((#3610,#3620,#3630)) REPRESENTATION_CONTEXT
('',''));
#3650=UNCERTAINTY_MEASURE_WITH_UNIT(LENGTH_MEASURE(1.E-6),#3610,
'distance_accuracy_value','maximum gap value');
#3660=ADVANCED_BREP_SHAPE_REPRESENTATION('',(#3480,#3440),#3640);
#3670=SHAPE_DEFINITION_REPRESENTATION(#3570,#3660);
#3680=COLOUR_RGB('',0.784313797950745,0.784313797950745,
0.784313797950745);
#3690=FILL_AREA_STYLE_COLOUR('',#3680);
#3700=FILL_AREA_STYLE('',(#3690));
#3710=SURFACE_STYLE_FILL_AREA(#3700);
#3720=SURFACE_SIDE_STYLE('',(#3710));
#3730=SURFACE_STYLE_USAGE(.BOTH.,#3720);
#3740=PRESENTATION_STYLE_ASSIGNMENT((#3730));
#3750=STYLED_ITEM('',(#3740),#3440);
#3760=DRAUGHTING_MODEL('',(#3750),#3640);
ENDSEC;
END-ISO-10303-21;
